  0
SECTION
  2
HEADER
  9
$ACADVER
  1
AC1009
  0
ENDSEC
  0
SECTION
  2
TABLES
  0
TABLE
  2
LTYPE
 70
2
  0
LTYPE
  2
CONTINUOUS
 70
0
  3
Solid line
 72
65
 73
0
 40
0.0
  0
LTYPE
  2
CHAINED
 70
0
  3
Chained line
 72
65
 73
4
 40
24.000000
 49
15.000000
 49
-3.000000
 49
3.000000
 49
-3.000000
  0
LTYPE
  2
Dashed
 70
0
  3
Dashed line
 72
65
 73
2
 40
10.000000
 49
5.000000
 49
-5.000000
  0
ENDTAB
  0
TABLE
  2
LAYER
 70
2
  0
ENDTAB
  0
ENDSEC
  0
SECTION
  2
ENTITIES
  0
LINE
  8
0
 10
47.174250
 20
769.999359
 30
0.0
 11
47.176815
 21
785.999359
 31
0.0
  0
ARC
  8
0
 10
43.176815
 20
786.000000
 30
0.000000
 40
4.000000
 50
359.990816
 51
179.990816
  0
LINE
  8
0
 10
39.176815
 20
786.000641
 30
0.0
 11
39.171685
 21
754.000642
 31
0.0
  0
ARC
  8
0
 10
43.171685
 20
754.000001
 30
0.000000
 40
4.000000
 50
179.990816
 51
359.990816
  0
LINE
  8
0
 10
47.171685
 20
753.999359
 30
0.0
 11
47.174250
 21
769.999359
 31
0.0
  0
LINE
  8
0
 10
47.164232
 20
707.499360
 30
0.0
 11
47.166796
 21
723.499360
 31
0.0
  0
ARC
  8
0
 10
43.166796
 20
723.500001
 30
0.000000
 40
4.000000
 50
359.990816
 51
179.990816
  0
LINE
  8
0
 10
39.166796
 20
723.500642
 30
0.0
 11
39.161667
 21
691.500642
 31
0.0
  0
ARC
  8
0
 10
43.161667
 20
691.500001
 30
0.000000
 40
4.000000
 50
179.990816
 51
359.990816
  0
LINE
  8
0
 10
47.161667
 20
691.499360
 30
0.0
 11
47.164232
 21
707.499360
 31
0.0
  0
LINE
  8
0
 10
39.168479
 20
644.999361
 30
0.0
 11
39.171044
 21
628.999361
 31
0.0
  0
ARC
  8
0
 10
43.171044
 20
629.000002
 30
0.000000
 40
4.000000
 50
180.009184
 51
0.009184
  0
LINE
  8
0
 10
47.171044
 20
629.000643
 30
0.0
 11
47.165915
 21
661.000643
 31
0.0
  0
ARC
  8
0
 10
43.165915
 20
661.000002
 30
0.000000
 40
4.000000
 50
0.009184
 51
180.009184
  0
LINE
  8
0
 10
39.165915
 20
660.999360
 30
0.0
 11
39.168479
 21
644.999361
 31
0.0
  0
CIRCLE
  8
0
 10
10.000000
 20
647.880929
 30
0.000000
 40
4.500000
  0
CIRCLE
  8
0
 10
76.356194
 20
647.880929
 30
0.000000
 40
4.500000
  0
LINE
  8
0
 10
39.177857
 20
582.499361
 30
0.0
 11
39.180421
 21
566.499362
 31
0.0
  0
ARC
  8
0
 10
43.180421
 20
566.500003
 30
0.000000
 40
4.000000
 50
180.009184
 51
0.009184
  0
LINE
  8
0
 10
47.180421
 20
566.500644
 30
0.0
 11
47.175292
 21
598.500644
 31
0.0
  0
ARC
  8
0
 10
43.175292
 20
598.500002
 30
0.000000
 40
4.000000
 50
0.009184
 51
180.009184
  0
LINE
  8
0
 10
39.175292
 20
598.499361
 30
0.0
 11
39.177857
 21
582.499361
 31
0.0
  0
LINE
  8
0
 10
47.173609
 20
519.999362
 30
0.0
 11
47.176173
 21
535.999362
 31
0.0
  0
ARC
  8
0
 10
43.176173
 20
536.000003
 30
0.000000
 40
4.000000
 50
359.990816
 51
179.990816
  0
LINE
  8
0
 10
39.176174
 20
536.000644
 30
0.0
 11
39.171044
 21
504.000645
 31
0.0
  0
ARC
  8
0
 10
43.171044
 20
504.000004
 30
0.000000
 40
4.000000
 50
179.990816
 51
359.990816
  0
LINE
  8
0
 10
47.171044
 20
503.999362
 30
0.0
 11
47.173609
 21
519.999362
 31
0.0
  0
LINE
  8
0
 10
39.177857
 20
457.499363
 30
0.0
 11
39.180421
 21
441.499363
 31
0.0
  0
ARC
  8
0
 10
43.180421
 20
441.500004
 30
0.000000
 40
4.000000
 50
180.009184
 51
0.009184
  0
LINE
  8
0
 10
47.180421
 20
441.500646
 30
0.0
 11
47.175292
 21
473.500645
 31
0.0
  0
ARC
  8
0
 10
43.175292
 20
473.500004
 30
0.000000
 40
4.000000
 50
0.009184
 51
180.009184
  0
LINE
  8
0
 10
39.175292
 20
473.499363
 30
0.0
 11
39.177857
 21
457.499363
 31
0.0
  0
LINE
  8
0
 10
39.173609
 20
395.000646
 30
0.0
 11
39.171044
 21
379.000646
 31
0.0
  0
ARC
  8
0
 10
43.171044
 20
379.000005
 30
0.000000
 40
4.000000
 50
179.990816
 51
359.990816
  0
LINE
  8
0
 10
47.171044
 20
378.999364
 30
0.0
 11
47.176173
 21
410.999364
 31
0.0
  0
ARC
  8
0
 10
43.176173
 20
411.000005
 30
0.000000
 40
4.000000
 50
359.990816
 51
179.990816
  0
LINE
  8
0
 10
39.176174
 20
411.000646
 30
0.0
 11
39.173609
 21
395.000646
 31
0.0
  0
CIRCLE
  8
0
 10
10.000000
 20
346.450060
 30
0.000000
 40
4.500000
  0
LINE
  8
0
 10
39.177857
 20
332.499365
 30
0.0
 11
39.180421
 21
316.499365
 31
0.0
  0
ARC
  8
0
 10
43.180421
 20
316.500006
 30
0.000000
 40
4.000000
 50
180.009184
 51
0.009184
  0
LINE
  8
0
 10
47.180421
 20
316.500647
 30
0.0
 11
47.175292
 21
348.500647
 31
0.0
  0
ARC
  8
0
 10
43.175292
 20
348.500006
 30
0.000000
 40
4.000000
 50
0.009184
 51
180.009184
  0
LINE
  8
0
 10
39.175292
 20
348.499364
 30
0.0
 11
39.177857
 21
332.499365
 31
0.0
  0
CIRCLE
  8
0
 10
76.356194
 20
346.450060
 30
0.000000
 40
4.500000
  0
LINE
  8
0
 10
47.173609
 20
269.999365
 30
0.0
 11
47.176173
 21
285.999365
 31
0.0
  0
ARC
  8
0
 10
43.176173
 20
286.000006
 30
0.000000
 40
4.000000
 50
359.990816
 51
179.990816
  0
LINE
  8
0
 10
39.176174
 20
286.000648
 30
0.0
 11
39.171044
 21
254.000648
 31
0.0
  0
ARC
  8
0
 10
43.171044
 20
254.000007
 30
0.000000
 40
4.000000
 50
179.990816
 51
359.990816
  0
LINE
  8
0
 10
47.171044
 20
253.999366
 30
0.0
 11
47.173609
 21
269.999365
 31
0.0
  0
LINE
  8
0
 10
39.177857
 20
207.499366
 30
0.0
 11
39.180421
 21
191.499366
 31
0.0
  0
ARC
  8
0
 10
43.180421
 20
191.500008
 30
0.000000
 40
4.000000
 50
180.009184
 51
0.009184
  0
LINE
  8
0
 10
47.180421
 20
191.500649
 30
0.0
 11
47.175292
 21
223.500648
 31
0.0
  0
ARC
  8
0
 10
43.175292
 20
223.500007
 30
0.000000
 40
4.000000
 50
0.009184
 51
180.009184
  0
LINE
  8
0
 10
39.175292
 20
223.499366
 30
0.0
 11
39.177857
 21
207.499366
 31
0.0
  0
LINE
  8
0
 10
47.173609
 20
144.999367
 30
0.0
 11
47.176173
 21
160.999367
 31
0.0
  0
ARC
  8
0
 10
43.176173
 20
161.000008
 30
0.000000
 40
4.000000
 50
359.990816
 51
179.990816
  0
LINE
  8
0
 10
39.176174
 20
161.000649
 30
0.0
 11
39.171044
 21
129.000650
 31
0.0
  0
ARC
  8
0
 10
43.171044
 20
129.000008
 30
0.000000
 40
4.000000
 50
179.990816
 51
359.990816
  0
LINE
  8
0
 10
47.171044
 20
128.999367
 30
0.0
 11
47.173609
 21
144.999367
 31
0.0
  0
LINE
  8
0
 10
39.177857
 20
82.499368
 30
0.0
 11
39.180421
 21
66.499368
 31
0.0
  0
ARC
  8
0
 10
43.180421
 20
66.500009
 30
0.000000
 40
4.000000
 50
180.009184
 51
0.009184
  0
LINE
  8
0
 10
47.180421
 20
66.500650
 30
0.0
 11
47.175292
 21
98.500650
 31
0.0
  0
ARC
  8
0
 10
43.175292
 20
98.500009
 30
0.000000
 40
4.000000
 50
0.009184
 51
180.009184
  0
LINE
  8
0
 10
39.175292
 20
98.499368
 30
0.0
 11
39.177857
 21
82.499368
 31
0.0
  0
CIRCLE
  8
0
 10
10.000000
 20
9.000000
 30
0.000000
 40
4.500000
  0
CIRCLE
  8
0
 10
76.356194
 20
9.000000
 30
0.000000
 40
4.500000
  0
LINE
  8
0
 10
0.000000
 20
0.000000
 30
0.0
 11
0.000000
 21
795.000000
 31
0.0
  0
ARC
  8
0
 10
5.000000
 20
795.000000
 30
0.000000
 40
5.000000
 50
90.000000
 51
180.000000
  0
LINE
  8
0
 10
5.000000
 20
800.000000
 30
0.0
 11
18.500000
 21
800.000000
 31
0.0
  0
LINE
  8
0
 10
18.500000
 20
800.000000
 30
0.0
 11
19.678097
 21
800.000000
 31
0.0
  0
LINE
  8
0
 10
19.678097
 20
800.000000
 30
0.0
 11
66.678097
 21
800.000000
 31
0.0
  0
LINE
  8
0
 10
66.678097
 20
800.000000
 30
0.0
 11
67.856194
 21
800.000000
 31
0.0
  0
LINE
  8
0
 10
67.856194
 20
800.000000
 30
0.0
 11
81.356194
 21
800.000000
 31
0.0
  0
ARC
  8
0
 10
81.356194
 20
795.000000
 30
0.000000
 40
5.000000
 50
0.000000
 51
90.000000
  0
LINE
  8
0
 10
86.356194
 20
795.000000
 30
0.0
 11
86.356194
 21
0.000000
 31
0.0
  0
LINE
  8
0
 10
86.356194
 20
0.000000
 30
0.0
 11
67.856194
 21
0.000000
 31
0.0
  0
LINE
  8
0
 10
67.856194
 20
0.000000
 30
0.0
 11
66.678097
 21
0.000000
 31
0.0
  0
LINE
  8
0
 10
66.678097
 20
0.000000
 30
0.0
 11
19.678097
 21
0.000000
 31
0.0
  0
LINE
  8
0
 10
19.678097
 20
0.000000
 30
0.0
 11
18.500000
 21
0.000000
 31
0.0
  0
LINE
  8
0
 10
18.500000
 20
0.000000
 30
0.0
 11
0.000000
 21
0.000000
 31
0.0
  0
ENDSEC
  0
EOF
